TUM HI HO AASHIQUI 2 LOVE THEME GUITAR TABS

   
Original credits of this song:

Song: Tum Hi Ho
Movie: Aashiqui 2
Singer: Arijit Singh
Music: Mithoon
Lyrics: Mithoon
Producer: Bhushan Kumar Krishan Kumar Producer: Mukesh Bhatt 
TUM HI HO AASHIQUI 2 LOVE THEME GUITAR TABS
Director: Mohit Suri
Music Label: T-Series



THESE ARE THE GUITAR TABS OF THE LOVE THEME OF THE SONG TUM HI HO FROM THE
MOVIE 'AASHIQUI 2'


this is the high pitched version by the way you can also shift the tabs to low pitch by changing
12->0
13->1
14->2
and so on the notes will still remain the same



Repeat this intro twice



e--13--15--16--13--15--16---------------------------------|

B-----------------------------------13--14----14--13--14--|

G--------------------------------------------------------------|

D--------------------------------------------------------------|

A--------------------------------------------------------------|

E--------------------------------------------------------------|


e--------13--15----------13--15----------------------------------------|

B--16--------------16---------------14--14--13--13-----------13----|

G------------------------------------------------------------15--------|

D------------------------------------------------------------------------|

A------------------------------------------------------------------------|

E------------------------------------------------------------------------|


e---------------13---------------13--20--20--18--18--16--18-----|

B--14--16-----------14--16------------------------------------------|

G-------------------------------------------------------------------------|

D-------------------------------------------------------------------------|

A-------------------------------------------------------------------------|

E-------------------------------------------------------------------------|


e-------------------------20--20--21--20----------20------------|

B--20--20--17--17--------------------------20----------------|

G------------------------------------------------------------------------|

D------------------------------------------------------------------------|

A------------------------------------------------------------------------|

E------------------------------------------------------------------------|





(main part of the song)



Tere Liye Hi Jiya Main

e--13--13----------13----13--13--15--------------------------|

B-------------16----------------------------16--14--13--------|

G------------------------------------------------------------------|

D------------------------------------------------------------------|

A------------------------------------------------------------------|

E------------------------------------------------------------------|


Khud Ko Jo Yun De Diya Hai

e---------------------13----13--13--15--------------------------|

B--13--13--14----------------------------16--14--13------------|

G----------------------------------------------------------------------|

D----------------------------------------------------------------------|

A----------------------------------------------------------------------|

E----------------------------------------------------------------------|


Teri Wafa Ne Mujhko Sambhala

e-----------------------------------------------------------------------|

B--14--14--13--14--13--14------------------------14--13----------|

G------------------------------------15--13--13---------------------|

D-----------------------------------------------------------------------|

A-----------------------------------------------------------------------|

E-----------------------------------------------------------------------|


Saare Gamo Ko Dil Se Nikala

e----------------------------------------------------------------------------|

B--14--14--13--14--14s16s14--13--------------------14--13-----|

G---------------------------------------------15--15--15-----------------|

D----------------------------------------------------------------------------|

A----------------------------------------------------------------------------|

E----------------------------------------------------------------------------|


Tere Sath Mera Hai Naseeb Juda

e----------------------------------------------------------------------|

B------------------------------------------------14--14--13--13--------13--|

G------------------12--12--------12----12------------------------15-------|

D--13--15--15--------------15----------------------------------------------|

A------------------------------------------------------------------------|

E------------------------------------------------------------------------|


Tujhe Pake Adhura Na Raha

e--------12--12--13--13----------------------------------------------------|

B--13-----------------------13--13------------------------------------------|

G----------------------------------------15--15--13--15--13----13--12--|

D-----------------------------------------------------------------------------|

A------------------------------------------------------------------------------|

E-------------------------------------------------------------------------------|


Kyuki Tum Hi Ho Ab Tum Hi Ho

e-------------------------------------------------------------------------|

B-------------13----------------------------13--14p13-----------------|

G--13--15---------13--15----13--15--------------------13--15------|

D-------------------------------------------------------------------------|

A-------------------------------------------------------------------------|

E-------------------------------------------------------------------------|


Zindagi Ab Tum Hi Ho

e------------------------------------------------------------------|

B-----------------------------------------------------------------|

G--12--15--13--12----------12----------------12--13--15-------|

D------------------------15----------13--15------------------|

A-----------------------------------------------------------------|

E-----------------------------------------------------------------|


Chain Bhi Mera Dard Bhi

e-----------------------------------------------------------------|

B--13--------------------------------13--16--14-------------|

G--------13--15--------13--15---------------------15---------|

D----------------------------------------------------------------|

A----------------------------------------------------------------|

E----------------------------------------------------------------|


Meri Aashiqui Ab Tum Hi Ho

e----------------------------------------------------------------|

B----------------------------------------------------------------|

G--12--12--15--13----12-----------12--------------------|

D---------------------------------15-----------13--15-------------|

A----------------------------------------------------------------|

E----------------------------------------------------------------|

we can also shift the tabs to low pitch by changing 

12->0
13->1
14->2
and so on the notes will still remain the same 





thankyou for coming to this website you are heartily welcome next time also
and please request more songs we will make a lesson in just 48 hours and do 
follow us on social media handles have a good day

Post a Comment

0 Comments